O qué que se anda a tirar de ouvido?

Ver o tópico anterior Ver o tópico seguinte Ir em baixo

O qué que se anda a tirar de ouvido?

Mensagem por mrcoffee em Seg Ago 20 2012, 08:29

Procurei mas n encontrei pessoal...
Volta e meia um gajo fica sem ideias, ou farta-se de tocar as do costume.. ou de improvisar... sei lá.. mas o facto é que um gajo acaba sempre por encontrar outra musica para tirar de ouvido no youtube e siga pa bingo.. mais sarna para me coçar por 1 semana..

Ontem não sei pq... comecei a tentar esta... no youtube /watch?v=-nL_-Yjztsc

o ritmo é uma beca complicado... tem mtas alternancias de picking.. e de facto o picking é pa cansar bem um gajo...
o que acham? Bom som ou q? LOL Rock
avatar
mrcoffee
Aprendiz de guitarra

Post Count : 26
Idade : 37
Localização : Lisboa
Guitarra : Fender
Guitarrista : Ritmo
Data de inscrição : 18/08/2012

Voltar ao Topo Ir em baixo

Re: O qué que se anda a tirar de ouvido?

Mensagem por Tifon em Seg Ago 20 2012, 17:14

ganda som! bués variações e tal, mas acho que com alguma insistência toca-se bem Smile
boas guitarradas Rock
avatar
Tifon
Guitarrista de fim-de-semana

Post Count : 166
Idade : 22
Localização : Leiria
Guitarra : Esp Ltd EC-1000Fm; Stratocaster
Guitarrista : Lead
Data de inscrição : 29/07/2012

Voltar ao Topo Ir em baixo

Re: O qué que se anda a tirar de ouvido?

Mensagem por ObiQueloKenobi em Seg Ago 20 2012, 17:43

Tenho andado a tentar sacar uns solos, mas como ainda não sei nada de escalas, tem sido nota-a-nota. Estas são as versões finais até aprender mais qualquer coisa.

Minuto 4:40



eb|---------------------------------------------------|
Bb|-9-10-12-12b--12--10h13-9-----------------|
Gb|--------------------------------------------------|
Db|--------------------------------------------------|
Ab|--------------------------------------------------|
Eb|--------------------------------------------------|

eb|---------------------------------------------------|
Bb|-9-10-12-12b--12--10-12-13--13b 12 12b-12h13-13|
Gb|--------------------------------------------------|
Db|--------------------------------------------------|
Ab|--------------------------------------------------|
Eb|--------------------------------------------------|

eb|------------------------17h20-16---------------|
Bb|-9-10-12-12b--12-----------------------------|
Gb|--------------------------------------------------|
Db|--------------------------------------------------|
Ab|--------------------------------------------------|
Eb|--------------------------------------------------|

eb|-16-17-19-19b-19--17-19-20-20b-19-19b-19h20-20|
Bb|--------------------------------------------------|
Gb|--------------------------------------------------|
Db|--------------------------------------------------|
Ab|--------------------------------------------------|
Eb|--------------------------------------------------|

eb|--16-17-19-19b-19--17h19-16---------------|
Bb|--------------------------------------------------|
Gb|--------------------------------------------------|
Db|--------------------------------------------------|
Ab|--------------------------------------------------|
Eb|--------------------------------------------------|

eb|-16-17-19-19b-19--17-19-20-20b-19-19b-19h20-20|
Bb|--------------------------------------------------|
Gb|--------------------------------------------------|
Db|--------------------------------------------------|
Ab|--------------------------------------------------|
Eb|--------------------------------------------------|

eb|-20b-17-19b-19---17-19-17-19--------------|
Bb|--------------------------------------------------|
Gb|--------------------------------------------------|
Db|--------------------------------------------------|
Ab|--------------------------------------------------|
Eb|--------------------------------------------------|

eb|-16-17-19-19b-19—17-19-17-16--17-17h19-17-|
Bb|--------------------------------------------------|
Gb|--------------------------------------------------|
Db|--------------------------------------------------|
Ab|--------------------------------------------------|
Eb|--------------------------------------------------|

E mais este:

Minuto 1:40



Eb|---------------------------------------------------|
Bb|-/16—19-19h20-17---------------------------|
Gb|--------------------------------------------------|
Db|--------------------------------------------------|
Ab|--------------------------------------------------|
Eb|--------------------------------------------------|

Eb|---------------------------------------------------|
Bb|-/16----------------------------------------------|
Gb|-------17-17-16--14-14h16--14-11----------|
Db|--------------------------------------------------|
Ab|--------------------------------------------------|
Eb|--------------------------------------------------|

Eb|------------------------------ -------------------|
Bb|-/16—19-19h20-20------------------- ---------|
Gb|--------------------------------------------------|
Db|--------------------------------------------------|
Ab|--------------------------------------------------|
Eb|--------------------------------------------------|

Eb|-20-20-19-------19-----------------------------|
Bb|--------------20-------20--19-19h20 19--20~|
Gb|--------------------------------------------------|
Db|--------------------------------------------------|
Ab|--------------------------------------------------|
Eb|--------------------------------------------------|

Se alguém tiver tempo para experimentar e sugerir alterações, ficaria agradecido.

ObiQueloKenobi
Guitar Hero

Post Count : 1883
Localização : Lisboa
Guitarra : roland micro cube & esp ltd m-10
Guitarrista : Indefinido
Data de inscrição : 13/06/2012

Voltar ao Topo Ir em baixo

Re: O qué que se anda a tirar de ouvido?

Mensagem por ObiQueloKenobi em Seg Ago 20 2012, 17:46

Btw, DRI Rules!!!!

ObiQueloKenobi
Guitar Hero

Post Count : 1883
Localização : Lisboa
Guitarra : roland micro cube & esp ltd m-10
Guitarrista : Indefinido
Data de inscrição : 13/06/2012

Voltar ao Topo Ir em baixo

Re: O qué que se anda a tirar de ouvido?

Mensagem por mrcoffee em Ter Ago 21 2012, 00:19

epá pelo que vejo e oiço os solos que estás a tentar até parecem bastante acessiveis, é quase tudo na mesma corda, tens alguns bendings e pouco mais. com 3 dedos fazes a festa! LOL
Continua a treinar as escalas... tb não curto népia... mas olha ontem estava um amigo meu lá em casa e o gajo pôs-se a ouvir um som lounge tipo thievery corporation, ora estava eu todo empenhado em D.R.I e Danzig e Billy Idol... quando dou por mim a improvisar numa porra duma escala que eu nem sei qual é.... mas a verdade é que soava bem com a musica de fundo! Escalas... fazem cenas milagrosas... é preciso treinar mas vale a pena!

Um abraço!
Bons Sons!!!

PS: Se curtes este tipo de som experimenta ouvir o album beneath the remains dos Sepultura! gandas riffs, bateira de loucos, solos a puxar bem e akela velocidade que parece que o mundo vai acabar amanha... LOOL
avatar
mrcoffee
Aprendiz de guitarra

Post Count : 26
Idade : 37
Localização : Lisboa
Guitarra : Fender
Guitarrista : Ritmo
Data de inscrição : 18/08/2012

Voltar ao Topo Ir em baixo

Re: O qué que se anda a tirar de ouvido?

Mensagem por mrcoffee em Ter Ago 21 2012, 00:37

@Tifon
Ya, conciliar o ritmo na mão direita com as variações dos acordes na mão esquerda dão-me cabo da cabeça.. é daquelas cenas em que tens q tar concentradíssimo! Sócio!!! Picking fortíssimo! LOOOL
Mas vai melhorando de dia para dia, é preciso ter uma paciência...
Qdo me farto toco a última parte do solo do Blood Brothers dos Maiden e é como uma lufada de paciência! já me aguento mais 30 minutos Very Happy

Btw... fica aqui a musica de anti-stress! LOOL /watch?v=7KV56kwxiHg
minuto 4:30

Um abraço!
avatar
mrcoffee
Aprendiz de guitarra

Post Count : 26
Idade : 37
Localização : Lisboa
Guitarra : Fender
Guitarrista : Ritmo
Data de inscrição : 18/08/2012

Voltar ao Topo Ir em baixo

Re: O qué que se anda a tirar de ouvido?

Mensagem por Tifon em Ter Ago 21 2012, 06:09

man, esta música é das melhores dos iron maiden, e é também na minha opinião um dos melhores solos, porque apesar de nao ser muito rápido ou complexo tem lá aquele feeling, nem sei explicar xD por acaso tambem curto tocar esta, é mesmo relaxante e ao mesmo tempo emocionante! Very Happy
a questão de conciliar as duas mãos é uma questão que implica muito treino, mas tu chegas lá, vais ver que depois é canja Razz
abraço Smile
avatar
Tifon
Guitarrista de fim-de-semana

Post Count : 166
Idade : 22
Localização : Leiria
Guitarra : Esp Ltd EC-1000Fm; Stratocaster
Guitarrista : Lead
Data de inscrição : 29/07/2012

Voltar ao Topo Ir em baixo

Re: O qué que se anda a tirar de ouvido?

Mensagem por mrcoffee em Ter Ago 21 2012, 06:47

exacto! é mm akele feeling que transparece no solo do Janick! e não é dificil, tem é q vir cá de dentro!
Maiden tem musicas com solos excelentes, Alexander the Great, Nomad são dos que mais admiro, mas do ultimo album à uma musica que não me canso de ouvir/tocar... When the Wild Wind Blows! mais uma longa metragem! Razz

Já estou um pouco melhor nas de D.R.I. mas ainda tenho q melhorar o ritmo.. já aos solos... logo à noite à mais!

um dia hei-de conseguir! heheh!
Um Abraço!
avatar
mrcoffee
Aprendiz de guitarra

Post Count : 26
Idade : 37
Localização : Lisboa
Guitarra : Fender
Guitarrista : Ritmo
Data de inscrição : 18/08/2012

Voltar ao Topo Ir em baixo

Re: O qué que se anda a tirar de ouvido?

Mensagem por Kevin09 em Ter Ago 21 2012, 06:58


aos 3:15

falta-me acertar os sweeps. sweeps não é comigo... ...ainda.
avatar
Kevin09
Guitar Hero

Post Count : 1520
Idade : 23
Localização : Braga / Santa Maria da Feira
Guitarra : Epiphone Les Paul Custom 13; Squier Bullet Stratocaster
Guitarrista : Lead
Data de inscrição : 20/08/2009

Voltar ao Topo Ir em baixo

Re: O qué que se anda a tirar de ouvido?

Mensagem por boavida em Ter Ago 21 2012, 06:59

de Maiden solos altamente com feeling e alguma velocidade tens muitos, assim de repente dos que toco lembrei-me do Powerslave, Rime of the Ancient Mariner, Aces High, Trooper, The Loneliness of the Long Distance Runer, The Clairvoyant, Prisioner, sei lá, são tantos que um gajo até esquece... Razz

_________________
www.myspace.com/boavida76
http://adivaobolimac.hi5.com
avatar
boavida
Moderador

Post Count : 3384
Idade : 41
Localização : Cantanhede
Guitarra : Gibson SG-3, Fender Stratocaster MIM, Yamaha Pacifica 311H YNS, Vintage VRS100, Tokai FV40; Epiphone Dot; APC5S
Guitarrista : Indefinido
Data de inscrição : 12/04/2009

Voltar ao Topo Ir em baixo

Re: O qué que se anda a tirar de ouvido?

Mensagem por mrcoffee em Qua Ago 22 2012, 06:05

@Kevin09
Epá! esses gajos é solos do estilo keygen!! akeles softwares da tanga que processam serials crackados pos jogos de PC! LOOOL
Curto esta deles ... mas não estou habilitado para estragar o som! hehehe
Um abraço! Da-lhe!!! /watch?v=Lcv97YqNqHI] Children of Bodom - Deadnight Warrior
avatar
mrcoffee
Aprendiz de guitarra

Post Count : 26
Idade : 37
Localização : Lisboa
Guitarra : Fender
Guitarrista : Ritmo
Data de inscrição : 18/08/2012

Voltar ao Topo Ir em baixo

Re: O qué que se anda a tirar de ouvido?

Mensagem por mrcoffee em Qua Ago 22 2012, 06:07

@boavida
Podes crer! Maiden tem solos de outro planeta! olha! Out of the Silent Planet!!
Tb gosto de tocar essa mas só sai menos mal após umas 10 tentativas!! heheheh!
Um Abraço! Up The Irons!!!! Very Happy
avatar
mrcoffee
Aprendiz de guitarra

Post Count : 26
Idade : 37
Localização : Lisboa
Guitarra : Fender
Guitarrista : Ritmo
Data de inscrição : 18/08/2012

Voltar ao Topo Ir em baixo

Re: O qué que se anda a tirar de ouvido?

Mensagem por Kevin09 em Qua Ago 22 2012, 06:13

Epá! esses gajos é solos do estilo keygen!! akeles softwares da tanga que processam serials crackados pos jogos de PC!

isso pra mim é dragonforce Razz
avatar
Kevin09
Guitar Hero

Post Count : 1520
Idade : 23
Localização : Braga / Santa Maria da Feira
Guitarra : Epiphone Les Paul Custom 13; Squier Bullet Stratocaster
Guitarrista : Lead
Data de inscrição : 20/08/2009

Voltar ao Topo Ir em baixo

Re: O qué que se anda a tirar de ouvido?

Mensagem por mrcoffee em Qua Ago 22 2012, 06:17

Dragonfake keres tu dizer... so tocam como deve ser em estudio! cheira-me que akilo é gravado devagarinho e a seguir aumentam os BPM!! hehehe Ao vivo não valem nada! Razz
avatar
mrcoffee
Aprendiz de guitarra

Post Count : 26
Idade : 37
Localização : Lisboa
Guitarra : Fender
Guitarrista : Ritmo
Data de inscrição : 18/08/2012

Voltar ao Topo Ir em baixo

Re: O qué que se anda a tirar de ouvido?

Mensagem por boavida em Qua Ago 22 2012, 06:34

O Out of the Silent Planet também é altamente, aí está uma boa música para tirar. Quando tiver tempo hei-de-me dedicar a isso. Rock

_________________
www.myspace.com/boavida76
http://adivaobolimac.hi5.com
avatar
boavida
Moderador

Post Count : 3384
Idade : 41
Localização : Cantanhede
Guitarra : Gibson SG-3, Fender Stratocaster MIM, Yamaha Pacifica 311H YNS, Vintage VRS100, Tokai FV40; Epiphone Dot; APC5S
Guitarrista : Indefinido
Data de inscrição : 12/04/2009

Voltar ao Topo Ir em baixo

Re: O qué que se anda a tirar de ouvido?

Mensagem por mrcoffee em Qua Ago 29 2012, 04:50

é altamente! é um bom tempo "perdido" para aprender isso!
Eu continuo com o Virus de D.R.I dentro de mim! não encontro antibiótico de cura! hehehe! desta feita andamos a partir muitas cordas à pala do KILL THE WORDS!
a intro é mto fixe, e qdo chega aos riffs dá vontade de começar a partir a casa toda!! e dá cá uma stamina na mãozinha do picking... hhehehehe até apita!
Fãs de Thrash... experimentem! Vale a pena :DDD youtubi /watch?v=Cvwce7pWCXU&feature=related

\m/
avatar
mrcoffee
Aprendiz de guitarra

Post Count : 26
Idade : 37
Localização : Lisboa
Guitarra : Fender
Guitarrista : Ritmo
Data de inscrição : 18/08/2012

Voltar ao Topo Ir em baixo

Re: O qué que se anda a tirar de ouvido?

Mensagem por Maganão o Troll em Qua Ago 29 2012, 09:54

dragonforce é musica caros colegas Laughing ?não os misturem com outros artistas que até parece mal LOOOOOL Razz
avatar
Maganão o Troll
Guitarrista de garagem

Post Count : 363
Idade : 26
Localização : Problem ?
Guitarra : i used to have a guitar,but then i took an arrow in the knee
Guitarrista : Indefinido
Data de inscrição : 22/12/2011

Voltar ao Topo Ir em baixo

Re: O qué que se anda a tirar de ouvido?

Mensagem por Conteúdo patrocinado


Conteúdo patrocinado


Voltar ao Topo Ir em baixo

Ver o tópico anterior Ver o tópico seguinte Voltar ao Topo


 
Permissão deste fórum:
Você não pode responder aos tópicos neste fórum