Modos Gregros

Ver o tópico anterior Ver o tópico seguinte Ir em baixo

Modos Gregros

Mensagem por Convidad em Qua Ago 12 2009, 21:29

Olá pessoal, bom vou deixar aqui 7 escalas, conhecidas como "Modos Gregos", as 7 escalas vão do início ao fim do braço da guitarra, uma verdadeira mão na roda pra quem tá afim de fazer improvisos de solos e treinar velocidade.

Modos Gregos:
Jônio

-------------------------------5-7-8-

-------------------------5-7-8-------

-------------------4-5-7-------------

-------------4-5-7-------------------

-------3-5-7-------------------------

-3-5-7-------------------------------

Dório

--------------------------------7-8-10-

-------------------------7-8-10--------

-------------------5-7-9---------------

-------------5-7-9---------------------

-------5-7-9---------------------------

-5-7-8---------------------------------



Frígio

-------------------------------------8-10-12-

-----------------------------8-10-12---------

----------------------7-9-11-----------------

---------------7-9-10------------------------

--------7-9-10-------------------------------

-7-8-10--------------------------------------



Lídio

------------------------------------------10-12-14-

---------------------------------10-12-13----------

-------------------------9-11-12-------------------

-----------------9-10-12---------------------------

---------9-10-12-----------------------------------

-8-10-12-------------------------------------------



Mixolídio

----------------------------------------------12-14-15-

-------------------------------------12-13-15----------

----------------------------11-12-14-------------------

-------------------10-12-14----------------------------

----------10-12-14-------------------------------------

-10-12-14----------------------------------------------



Eólio

----------------------------------------------14-15-17-

-------------------------------------13-15-17----------

----------------------------12-14-16-------------------

-------------------12-14-16----------------------------

----------12-14-15-------------------------------------

-12-14-15----------------------------------------------



Lócrio

----------------------------------------------15-17-19-

-------------------------------------15-17-19----------

----------------------------14-16-17-------------------

-------------------14-16-17----------------------------

----------14-15-17-------------------------------------

-14-15-17----------------------------------------------Abraço pessoal é até mais Smile .
avatar
Convidad
Convidado


Voltar ao Topo Ir em baixo

Re: Modos Gregros

Mensagem por Convidad em Qui Ago 13 2009, 08:28

Esta muito bom mesmo mas para a proxima coloca no post dos modos gregos que ja estava aberto Razz
avatar
Convidad
Convidado


Voltar ao Topo Ir em baixo

Re: Modos Gregros

Mensagem por Convidad em Ter Ago 18 2009, 15:55

Me desculpem, sou novo aqui, tentarei fazer certo na próxima vez Wink


Abraços
avatar
Convidad
Convidado


Voltar ao Topo Ir em baixo

Re: Modos Gregros

Mensagem por kicos em Ter Ago 18 2009, 16:03

obrigado bom post Palheta +1
avatar
kicos
Moderador

Post Count : 4276
Idade : 25
Localização : Porto
Guitarra : now playing: squier classic vibe 50's telecaster / yamaha c-40
Guitarrista : Ritmo
Data de inscrição : 01/07/2009

http://www.youtube.com/user/eukicos

Voltar ao Topo Ir em baixo

Re: Modos Gregros

Mensagem por Convidad em Ter Ago 18 2009, 18:20

Muito Obrigado Very Happy
avatar
Convidad
Convidado


Voltar ao Topo Ir em baixo

Re: Modos Gregros

Mensagem por Conteúdo patrocinado


Conteúdo patrocinado


Voltar ao Topo Ir em baixo

Ver o tópico anterior Ver o tópico seguinte Voltar ao Topo


 
Permissão deste fórum:
Você não pode responder aos tópicos neste fórum